ISO-10303-21;
HEADER;
FILE_DESCRIPTION (( 'STEP AP203' ),
    '1' );
FILE_NAME ('BK7-LNPBSC-25.4-532.STEP',
    '2021-01-05T02:02:20',
    ( '' ),
    ( '' ),
    'SwSTEP 2.0',
    'SolidWorks 2020',
    '' );
FILE_SCHEMA (( 'CONFIG_CONTROL_DESIGN' ));
ENDSEC;

DATA;
#1 = VECTOR ( 'NONE', #259, 1000.000000000000000 ) ;
#2 = LINE ( 'NONE', #15, #97 ) ;
#3 = LOCAL_TIME ( 10, 2, 20.00000000000000000, #307 ) ;
#4 = CARTESIAN_POINT ( 'NONE',  ( 12.69999999999999929, 12.69999999999999929, -12.69999999999999929 ) ) ;
#5 = CARTESIAN_POINT ( 'NONE',  ( 12.69999999999999929, 12.69999999999999929, 12.69999999999999929 ) ) ;
#6 = LINE ( 'NONE', #283, #212 ) ;
#7 = DATE_TIME_ROLE ( 'creation_date' ) ;
#8 = ADVANCED_FACE ( 'NONE', ( #22 ), #105, .F. ) ;
#9 = LOCAL_TIME ( 10, 2, 20.00000000000000000, #302 ) ;
#10 = DATE_AND_TIME ( #108, #304 ) ;
#11 = APPROVAL_STATUS ( 'not_yet_approved' ) ;
#12 = EDGE_CURVE ( 'NONE', #118, #150, #203, .T. ) ;
#13 = APPROVAL_DATE_TIME ( #84, #290 ) ;
#14 = CC_DESIGN_PERSON_AND_ORGANIZATION_ASSIGNMENT ( #48, #153, ( #113 ) ) ;
#15 = CARTESIAN_POINT ( 'NONE',  ( 12.69999999999999574, 12.69999999999999574, 12.69999999999999929 ) ) ;
#16 = DIRECTION ( 'NONE',  ( 0.000000000000000000, 0.000000000000000000, 1.000000000000000000 ) ) ;
#17 = VECTOR ( 'NONE', #173, 1000.000000000000000 ) ;
#18 = AXIS2_PLACEMENT_3D ( 'NONE', #177, #297, #222 ) ;
#19 = DIRECTION ( 'NONE',  ( 0.000000000000000000, 0.000000000000000000, 1.000000000000000000 ) ) ;
#20 = ORIENTED_EDGE ( 'NONE', *, *, #261, .T. ) ;
#21 = DIRECTION ( 'NONE',  ( 2.220446049250312588E-16, -1.000000000000000000, 0.000000000000000000 ) ) ;
#22 = FACE_OUTER_BOUND ( 'NONE', #295, .T. ) ;
#23 = PERSON_AND_ORGANIZATION_ROLE ( 'design_owner' ) ;
#24 = ORIENTED_EDGE ( 'NONE', *, *, #127, .F. ) ;
#25 = ORIENTED_EDGE ( 'NONE', *, *, #69, .T. ) ;
#26 = LINE ( 'NONE', #125, #131 ) ;
#27 = VECTOR ( 'NONE', #272, 999.9999999999998863 ) ;
#28 = LINE ( 'NONE', #273, #277 ) ;
#29 = ADVANCED_FACE ( 'NONE', ( #31 ), #80, .F. ) ;
#30 = CARTESIAN_POINT ( 'NONE',  ( -12.69999999999999751, -12.69999999999999929, 12.69999999999999929 ) ) ;
#31 = FACE_OUTER_BOUND ( 'NONE', #318, .T. ) ;
#32 = CARTESIAN_POINT ( 'NONE',  ( 0.000000000000000000, 0.000000000000000000, 0.000000000000000000 ) ) ;
#33 = CARTESIAN_POINT ( 'NONE',  ( 12.69999999999999574, 12.69999999999999574, -12.69999999999999929 ) ) ;
#34 = EDGE_CURVE ( 'NONE', #239, #178, #2, .T. ) ;
#35 = CALENDAR_DATE ( 2021, 5, 1 ) ;
#36 = PERSON_AND_ORGANIZATION ( #115, #258 ) ;
#37 = DIRECTION ( 'NONE',  ( -0.000000000000000000, 1.000000000000000000, -0.000000000000000000 ) ) ;
#38 =( GEOMETRIC_REPRESENTATION_CONTEXT ( 3 ) GLOBAL_UNCERTAINTY_ASSIGNED_CONTEXT ( ( #285 ) ) GLOBAL_UNIT_ASSIGNED_CONTEXT ( ( #132, #266, #104 ) ) REPRESENTATION_CONTEXT ( 'NONE', 'WORKASPACE' ) );
#39 = LINE ( 'NONE', #40, #317 ) ;
#40 = CARTESIAN_POINT ( 'NONE',  ( -12.70000000000000284, 12.70000000000000284, 12.69999999999999929 ) ) ;
#41 = ORIENTED_EDGE ( 'NONE', *, *, #310, .F. ) ;
#42 = CARTESIAN_POINT ( 'NONE',  ( -12.69999999999999574, -12.69999999999999396, -12.69999999999999929 ) ) ;
#43 = ORIENTED_EDGE ( 'NONE', *, *, #124, .T. ) ;
#44 = CC_DESIGN_DATE_AND_TIME_ASSIGNMENT ( #10, #305, ( #253 ) ) ;
#45 = ORIENTED_EDGE ( 'NONE', *, *, #199, .F. ) ;
#46 = PLANE ( 'NONE',  #117 ) ;
#47 = ORIENTED_EDGE ( 'NONE', *, *, #107, .T. ) ;
#48 = PERSON_AND_ORGANIZATION ( #115, #258 ) ;
#49 = CC_DESIGN_PERSON_AND_ORGANIZATION_ASSIGNMENT ( #74, #23, ( #231 ) ) ;
#50 = EDGE_LOOP ( 'NONE', ( #201, #24, #41, #195 ) ) ;
#51 = VECTOR ( 'NONE', #301, 1000.000000000000114 ) ;
#52 = DIRECTION ( 'NONE',  ( -2.220446049250312588E-16, 1.000000000000000000, 0.000000000000000000 ) ) ;
#53 = DIRECTION ( 'NONE',  ( 1.000000000000000000, -2.220446049250312588E-16, 0.000000000000000000 ) ) ;
#54 = CARTESIAN_POINT ( 'NONE',  ( -12.69999999999999574, -12.69999999999999396, 12.69999999999999929 ) ) ;
#55 = FACE_OUTER_BOUND ( 'NONE', #312, .T. ) ;
#56 = DIRECTION ( 'NONE',  ( -0.000000000000000000, -0.000000000000000000, -1.000000000000000000 ) ) ;
#57 = CC_DESIGN_APPROVAL ( #176, ( #253 ) ) ;
#58 = DIRECTION ( 'NONE',  ( 0.7071067811865475727, -0.7071067811865475727, 0.000000000000000000 ) ) ;
#59 = CARTESIAN_POINT ( 'NONE',  ( 0.000000000000000000, 0.000000000000000000, -12.69999999999999929 ) ) ;
#60 = VECTOR ( 'NONE', #227, 1000.000000000000000 ) ;
#61 = APPROVAL_PERSON_ORGANIZATION ( #202, #66, #96 ) ;
#62 = EDGE_CURVE ( 'NONE', #179, #146, #181, .T. ) ;
#63 = AXIS2_PLACEMENT_3D ( 'NONE', #223, #236, #206 ) ;
#64 = EDGE_LOOP ( 'NONE', ( #93, #100, #267 ) ) ;
#65 = VERTEX_POINT ( 'NONE', #135 ) ;
#66 = APPROVAL ( #271, 'UNSPECIFIED' ) ;
#67 = DIRECTION ( 'NONE',  ( -0.000000000000000000, -0.000000000000000000, -1.000000000000000000 ) ) ;
#68 = ORIENTED_EDGE ( 'NONE', *, *, #298, .F. ) ;
#69 = EDGE_CURVE ( 'NONE', #178, #291, #159, .T. ) ;
#70 = EDGE_LOOP ( 'NONE', ( #264, #122, #171, #148 ) ) ;
#71 = CC_DESIGN_SECURITY_CLASSIFICATION ( #253, ( #75 ) ) ;
#72 = FACE_OUTER_BOUND ( 'NONE', #50, .T. ) ;
#73 = EDGE_LOOP ( 'NONE', ( #244, #193, #43 ) ) ;
#74 = PERSON_AND_ORGANIZATION ( #115, #258 ) ;
#75 = PRODUCT_DEFINITION_FORMATION_WITH_SPECIFIED_SOURCE ( 'ANY', '', #231, .NOT_KNOWN. ) ;
#76 = LINE ( 'NONE', #160, #27 ) ;
#77 = CARTESIAN_POINT ( 'NONE',  ( -12.70000000000000284, 12.70000000000000284, -12.69999999999999929 ) ) ;
#78 = CARTESIAN_POINT ( 'NONE',  ( 12.69999999999999929, 12.69999999999999929, -12.69999999999999929 ) ) ;
#79 = COORDINATED_UNIVERSAL_TIME_OFFSET ( 8, 0, .AHEAD. ) ;
#80 = PLANE ( 'NONE',  #140 ) ;
#81 = PRODUCT_RELATED_PRODUCT_CATEGORY ( 'detail', '', ( #231 ) ) ;
#82 = LINE ( 'NONE', #86, #174 ) ;
#83 = APPROVAL_ROLE ( '' ) ;
#84 = DATE_AND_TIME ( #35, #3 ) ;
#85 = AXIS2_PLACEMENT_3D ( 'NONE', #208, #225, #278 ) ;
#86 = CARTESIAN_POINT ( 'NONE',  ( 12.69999999999999929, 12.69999999999999929, 12.69999999999999929 ) ) ;
#87 = ORIENTED_EDGE ( 'NONE', *, *, #269, .T. ) ;
#88 = LINE ( 'NONE', #145, #60 ) ;
#89 = VECTOR ( 'NONE', #200, 1000.000000000000114 ) ;
#90 = APPROVAL_PERSON_ORGANIZATION ( #162, #290, #83 ) ;
#91 = ORIENTED_EDGE ( 'NONE', *, *, #284, .F. ) ;
#92 = CARTESIAN_POINT ( 'NONE',  ( 12.69999999999999929, 12.69999999999999929, 12.69999999999999929 ) ) ;
#93 = ORIENTED_EDGE ( 'NONE', *, *, #12, .T. ) ;
#94 = PLANE ( 'NONE',  #191 ) ;
#95 = AXIS2_PLACEMENT_3D ( 'NONE', #59, #166, #257 ) ;
#96 = APPROVAL_ROLE ( '' ) ;
#97 = VECTOR ( 'NONE', #53, 1000.000000000000000 ) ;
#98 = ORIENTED_EDGE ( 'NONE', *, *, #163, .F. ) ;
#99 = FACE_OUTER_BOUND ( 'NONE', #270, .T. ) ;
#100 = ORIENTED_EDGE ( 'NONE', *, *, #310, .T. ) ;
#101 = LINE ( 'NONE', #158, #263 ) ;
#102 = AXIS2_PLACEMENT_3D ( 'NONE', #32, #128, #205 ) ;
#103 = CARTESIAN_POINT ( 'NONE',  ( 12.69999999999999929, 12.69999999999999929, -12.69999999999999929 ) ) ;
#104 =( NAMED_UNIT ( * ) SI_UNIT ( $, .STERADIAN. ) SOLID_ANGLE_UNIT ( ) );
#105 = PLANE ( 'NONE',  #63 ) ;
#106 = CARTESIAN_POINT ( 'NONE',  ( 0.000000000000000000, 0.000000000000000000, -12.69999999999999929 ) ) ;
#107 = EDGE_CURVE ( 'NONE', #118, #154, #82, .T. ) ;
#108 = CALENDAR_DATE ( 2021, 5, 1 ) ;
#109 = VECTOR ( 'NONE', #180, 1000.000000000000000 ) ;
#110 = DATE_AND_TIME ( #182, #9 ) ;
#111 = CARTESIAN_POINT ( 'NONE',  ( -12.69999999999999751, -12.69999999999999929, -12.69999999999999929 ) ) ;
#112 = CARTESIAN_POINT ( 'NONE',  ( -12.69999999999999574, -12.69999999999999396, -12.69999999999999929 ) ) ;
#113 = PRODUCT_DEFINITION ( 'UNKNOWN', '', #75, #311 ) ;
#114 = APPROVAL_PERSON_ORGANIZATION ( #137, #176, #275 ) ;
#115 = PERSON ( 'UNSPECIFIED', 'UNSPECIFIED', 'UNSPECIFIED', ('UNSPECIFIED'), ('UNSPECIFIED'), ('UNSPECIFIED') ) ;
#116 = ORIENTED_EDGE ( 'NONE', *, *, #127, .T. ) ;
#117 = AXIS2_PLACEMENT_3D ( 'NONE', #30, #224, #321 ) ;
#118 = VERTEX_POINT ( 'NONE', #204 ) ;
#119 = CARTESIAN_POINT ( 'NONE',  ( -12.70000000000000284, 12.70000000000000284, 12.69999999999999929 ) ) ;
#120 = ORIENTED_EDGE ( 'NONE', *, *, #69, .F. ) ;
#121 = PLANE ( 'NONE',  #18 ) ;
#122 = ORIENTED_EDGE ( 'NONE', *, *, #261, .F. ) ;
#123 = ORIENTED_EDGE ( 'NONE', *, *, #269, .F. ) ;
#124 = EDGE_CURVE ( 'NONE', #320, #175, #6, .T. ) ;
#125 = CARTESIAN_POINT ( 'NONE',  ( -12.69999999999999751, -12.69999999999999929, 12.69999999999999929 ) ) ;
#126 = DIRECTION ( 'NONE',  ( -0.7071067811865475727, 0.7071067811865475727, 0.000000000000000000 ) ) ;
#127 = EDGE_CURVE ( 'NONE', #65, #146, #28, .T. ) ;
#128 = DIRECTION ( 'NONE',  ( 0.000000000000000000, 0.000000000000000000, 1.000000000000000000 ) ) ;
#129 = APPLICATION_CONTEXT ( 'configuration controlled 3d designs of mechanical parts and assemblies' ) ;
#130 = FACE_OUTER_BOUND ( 'NONE', #64, .T. ) ;
#131 = VECTOR ( 'NONE', #149, 1000.000000000000000 ) ;
#132 =( LENGTH_UNIT ( ) NAMED_UNIT ( * ) SI_UNIT ( .MILLI., .METRE. ) );
#133 = ADVANCED_FACE ( 'NONE', ( #296 ), #276, .F. ) ;
#134 = CC_DESIGN_APPROVAL ( #290, ( #75 ) ) ;
#135 = CARTESIAN_POINT ( 'NONE',  ( 12.69999999999999929, -12.69999999999999929, 12.69999999999999929 ) ) ;
#136 = PLANE ( 'NONE',  #85 ) ;
#137 = PERSON_AND_ORGANIZATION ( #115, #258 ) ;
#138 = CC_DESIGN_PERSON_AND_ORGANIZATION_ASSIGNMENT ( #36, #281, ( #75 ) ) ;
#139 = PERSON_AND_ORGANIZATION ( #115, #258 ) ;
#140 = AXIS2_PLACEMENT_3D ( 'NONE', #309, #58, #248 ) ;
#141 = PERSON_AND_ORGANIZATION_ROLE ( 'creator' ) ;
#142 = CARTESIAN_POINT ( 'NONE',  ( 12.69999999999999574, 12.69999999999999574, 12.69999999999999929 ) ) ;
#143 = EDGE_CURVE ( 'NONE', #175, #246, #76, .T. ) ;
#144 = ADVANCED_FACE ( 'NONE', ( #130 ), #136, .T. ) ;
#145 = CARTESIAN_POINT ( 'NONE',  ( -12.69999999999999574, -12.69999999999999396, 12.69999999999999929 ) ) ;
#146 = VERTEX_POINT ( 'NONE', #250 ) ;
#147 = CLOSED_SHELL ( 'NONE', ( #29, #308, #8, #144, #155 ) ) ;
#148 = ORIENTED_EDGE ( 'NONE', *, *, #315, .T. ) ;
#149 = DIRECTION ( 'NONE',  ( 1.000000000000000000, 0.000000000000000000, 0.000000000000000000 ) ) ;
#150 = VERTEX_POINT ( 'NONE', #230 ) ;
#151 = ORIENTED_EDGE ( 'NONE', *, *, #12, .F. ) ;
#152 = CC_DESIGN_APPROVAL ( #66, ( #113 ) ) ;
#153 = PERSON_AND_ORGANIZATION_ROLE ( 'creator' ) ;
#154 = VERTEX_POINT ( 'NONE', #103 ) ;
#155 = ADVANCED_FACE ( 'NONE', ( #55 ), #161, .F. ) ;
#156 = CALENDAR_DATE ( 2021, 5, 1 ) ;
#157 = CARTESIAN_POINT ( 'NONE',  ( 12.69999999999999574, 12.69999999999999574, 12.69999999999999929 ) ) ;
#158 = CARTESIAN_POINT ( 'NONE',  ( -12.69999999999999574, -12.69999999999999396, 12.69999999999999929 ) ) ;
#159 = LINE ( 'NONE', #157, #314 ) ;
#160 = CARTESIAN_POINT ( 'NONE',  ( 12.69999999999999574, 12.69999999999999574, -12.69999999999999929 ) ) ;
#161 = PLANE ( 'NONE',  #184 ) ;
#162 = PERSON_AND_ORGANIZATION ( #115, #258 ) ;
#163 = EDGE_CURVE ( 'NONE', #146, #154, #303, .T. ) ;
#164 = MANIFOLD_SOLID_BREP ( 'Í¹Ì¨-À', #147 ) ;
#165 = MANIFOLD_SOLID_BREP ( '¾µÏ', #265 ) ;
#166 = DIRECTION ( 'NONE',  ( 0.000000000000000000, 0.000000000000000000, 1.000000000000000000 ) ) ;
#167 = FACE_OUTER_BOUND ( 'NONE', #293, .T. ) ;
#168 = DIRECTION ( 'NONE',  ( 1.000000000000000000, -2.220446049250312588E-16, 0.000000000000000000 ) ) ;
#169 = ORIENTED_EDGE ( 'NONE', *, *, #34, .F. ) ;
#170 = CARTESIAN_POINT ( 'NONE',  ( 12.69999999999999574, 12.69999999999999574, 12.69999999999999929 ) ) ;
#171 = ORIENTED_EDGE ( 'NONE', *, *, #34, .T. ) ;
#172 = PRODUCT_DEFINITION_SHAPE ( 'NONE', 'NONE',  #113 ) ;
#173 = DIRECTION ( 'NONE',  ( 0.000000000000000000, 0.000000000000000000, -1.000000000000000000 ) ) ;
#174 = VECTOR ( 'NONE', #183, 1000.000000000000000 ) ;
#175 = VERTEX_POINT ( 'NONE', #33 ) ;
#176 = APPROVAL ( #235, 'UNSPECIFIED' ) ;
#177 = CARTESIAN_POINT ( 'NONE',  ( 0.000000000000000000, 0.000000000000000000, 12.69999999999999929 ) ) ;
#178 = VERTEX_POINT ( 'NONE', #142 ) ;
#179 = VERTEX_POINT ( 'NONE', #228 ) ;
#180 = DIRECTION ( 'NONE',  ( 1.000000000000000000, 0.000000000000000000, 0.000000000000000000 ) ) ;
#181 = LINE ( 'NONE', #111, #109 ) ;
#182 = CALENDAR_DATE ( 2021, 5, 1 ) ;
#183 = DIRECTION ( 'NONE',  ( -0.000000000000000000, -0.000000000000000000, -1.000000000000000000 ) ) ;
#184 = AXIS2_PLACEMENT_3D ( 'NONE', #106, #299, #256 ) ;
#185 = DIRECTION ( 'NONE',  ( -0.7071067811865475727, -0.7071067811865475727, 0.000000000000000000 ) ) ;
#186 = AXIS2_PLACEMENT_3D ( 'NONE', #254, #126, #189 ) ;
#187 = ADVANCED_FACE ( 'NONE', ( #167 ), #94, .F. ) ;
#188 = APPROVAL_DATE_TIME ( #229, #176 ) ;
#189 = DIRECTION ( 'NONE',  ( 0.7071067811865475727, 0.7071067811865475727, 0.000000000000000000 ) ) ;
#190 = DIRECTION ( 'NONE',  ( -0.000000000000000000, 1.000000000000000000, -0.000000000000000000 ) ) ;
#191 = AXIS2_PLACEMENT_3D ( 'NONE', #237, #168, #19 ) ;
#192 = PLANE ( 'NONE',  #226 ) ;
#193 = ORIENTED_EDGE ( 'NONE', *, *, #199, .T. ) ;
#194 = EDGE_CURVE ( 'NONE', #65, #118, #241, .T. ) ;
#195 = ORIENTED_EDGE ( 'NONE', *, *, #240, .T. ) ;
#196 = ADVANCED_FACE ( 'NONE', ( #215 ), #192, .F. ) ;
#197 = COORDINATED_UNIVERSAL_TIME_OFFSET ( 8, 0, .AHEAD. ) ;
#198 = ORIENTED_EDGE ( 'NONE', *, *, #163, .T. ) ;
#199 = EDGE_CURVE ( 'NONE', #246, #320, #262, .T. ) ;
#200 = DIRECTION ( 'NONE',  ( -0.7071067811865474617, -0.7071067811865474617, 0.000000000000000000 ) ) ;
#201 = ORIENTED_EDGE ( 'NONE', *, *, #62, .T. ) ;
#202 = PERSON_AND_ORGANIZATION ( #115, #258 ) ;
#203 = LINE ( 'NONE', #5, #51 ) ;
#204 = CARTESIAN_POINT ( 'NONE',  ( 12.69999999999999929, 12.69999999999999929, 12.69999999999999929 ) ) ;
#205 = DIRECTION ( 'NONE',  ( 1.000000000000000000, 0.000000000000000000, 0.000000000000000000 ) ) ;
#206 = DIRECTION ( 'NONE',  ( 0.000000000000000000, 0.000000000000000000, 1.000000000000000000 ) ) ;
#207 = PERSON_AND_ORGANIZATION_ROLE ( 'classification_officer' ) ;
#208 = CARTESIAN_POINT ( 'NONE',  ( 0.000000000000000000, 0.000000000000000000, 12.69999999999999929 ) ) ;
#209 = VECTOR ( 'NONE', #190, 1000.000000000000000 ) ;
#210 = SHAPE_DEFINITION_REPRESENTATION ( #172, #287 ) ;
#211 = DIRECTION ( 'NONE',  ( 1.000000000000000000, -2.220446049250312588E-16, 0.000000000000000000 ) ) ;
#212 = VECTOR ( 'NONE', #211, 1000.000000000000000 ) ;
#213 = PLANE ( 'NONE',  #95 ) ;
#214 = FACE_OUTER_BOUND ( 'NONE', #73, .T. ) ;
#215 = FACE_OUTER_BOUND ( 'NONE', #70, .T. ) ;
#216 = ORIENTED_EDGE ( 'NONE', *, *, #298, .T. ) ;
#217 = CARTESIAN_POINT ( 'NONE',  ( -12.69999999999999751, -12.69999999999999929, 12.69999999999999929 ) ) ;
#218 = CC_DESIGN_PERSON_AND_ORGANIZATION_ASSIGNMENT ( #233, #207, ( #253 ) ) ;
#219 = ORIENTED_EDGE ( 'NONE', *, *, #194, .F. ) ;
#220 = ORIENTED_EDGE ( 'NONE', *, *, #62, .F. ) ;
#221 = APPLICATION_PROTOCOL_DEFINITION ( 'international standard', 'config_control_design', 1994, #279 ) ;
#222 = DIRECTION ( 'NONE',  ( -2.220446049250312588E-16, 1.000000000000000000, 0.000000000000000000 ) ) ;
#223 = CARTESIAN_POINT ( 'NONE',  ( 12.69999999999999929, 12.69999999999999929, 12.69999999999999929 ) ) ;
#224 = DIRECTION ( 'NONE',  ( 0.000000000000000000, 1.000000000000000000, 0.000000000000000000 ) ) ;
#225 = DIRECTION ( 'NONE',  ( -0.000000000000000000, 0.000000000000000000, 1.000000000000000000 ) ) ;
#226 = AXIS2_PLACEMENT_3D ( 'NONE', #170, #21, #16 ) ;
#227 = DIRECTION ( 'NONE',  ( 0.000000000000000000, 0.000000000000000000, -1.000000000000000000 ) ) ;
#228 = CARTESIAN_POINT ( 'NONE',  ( -12.69999999999999751, -12.69999999999999929, -12.69999999999999929 ) ) ;
#229 = DATE_AND_TIME ( #251, #306 ) ;
#230 = CARTESIAN_POINT ( 'NONE',  ( -12.69999999999999751, -12.69999999999999929, 12.69999999999999929 ) ) ;
#231 = PRODUCT ( 'BK7-LNPBSC-25.4-532', 'BK7-LNPBSC-25.4-532', '', ( #300 ) ) ;
#232 = COORDINATED_UNIVERSAL_TIME_OFFSET ( 8, 0, .AHEAD. ) ;
#233 = PERSON_AND_ORGANIZATION ( #115, #258 ) ;
#234 = CC_DESIGN_PERSON_AND_ORGANIZATION_ASSIGNMENT ( #139, #141, ( #75 ) ) ;
#235 = APPROVAL_STATUS ( 'not_yet_approved' ) ;
#236 = DIRECTION ( 'NONE',  ( -1.000000000000000000, 0.000000000000000000, 0.000000000000000000 ) ) ;
#237 = CARTESIAN_POINT ( 'NONE',  ( -12.69999999999999574, -12.69999999999999396, 12.69999999999999929 ) ) ;
#238 = DIRECTION ( 'NONE',  ( 0.000000000000000000, 0.000000000000000000, -1.000000000000000000 ) ) ;
#239 = VERTEX_POINT ( 'NONE', #119 ) ;
#240 = EDGE_CURVE ( 'NONE', #150, #179, #286, .T. ) ;
#241 = LINE ( 'NONE', #92, #209 ) ;
#242 = LINE ( 'NONE', #4, #89 ) ;
#243 = EDGE_LOOP ( 'NONE', ( #292, #313, #25, #87 ) ) ;
#244 = ORIENTED_EDGE ( 'NONE', *, *, #143, .T. ) ;
#245 = LINE ( 'NONE', #249, #17 ) ;
#246 = VERTEX_POINT ( 'NONE', #112 ) ;
#247 = APPROVAL_DATE_TIME ( #268, #66 ) ;
#248 = DIRECTION ( 'NONE',  ( 0.7071067811865474617, 0.7071067811865474617, 0.000000000000000000 ) ) ;
#249 = CARTESIAN_POINT ( 'NONE',  ( 12.69999999999999574, 12.69999999999999574, 12.69999999999999929 ) ) ;
#250 = CARTESIAN_POINT ( 'NONE',  ( 12.69999999999999929, -12.69999999999999929, -12.69999999999999929 ) ) ;
#251 = CALENDAR_DATE ( 2021, 5, 1 ) ;
#252 = ADVANCED_FACE ( 'NONE', ( #214 ), #213, .F. ) ;
#253 = SECURITY_CLASSIFICATION ( '', '', #255 ) ;
#254 = CARTESIAN_POINT ( 'NONE',  ( 12.69999999999999574, 12.69999999999999574, 12.69999999999999929 ) ) ;
#255 = SECURITY_CLASSIFICATION_LEVEL ( 'unclassified' ) ;
#256 = DIRECTION ( 'NONE',  ( 1.000000000000000000, 0.000000000000000000, 0.000000000000000000 ) ) ;
#257 = DIRECTION ( 'NONE',  ( -2.220446049250312588E-16, 1.000000000000000000, 0.000000000000000000 ) ) ;
#258 = ORGANIZATION ( 'UNSPECIFIED', 'UNSPECIFIED', '' ) ;
#259 = DIRECTION ( 'NONE',  ( -2.220446049250312588E-16, 1.000000000000000000, 0.000000000000000000 ) ) ;
#260 = ORIENTED_EDGE ( 'NONE', *, *, #107, .F. ) ;
#261 = EDGE_CURVE ( 'NONE', #239, #320, #39, .T. ) ;
#262 = LINE ( 'NONE', #42, #1 ) ;
#263 = VECTOR ( 'NONE', #52, 1000.000000000000000 ) ;
#264 = ORIENTED_EDGE ( 'NONE', *, *, #124, .F. ) ;
#265 = CLOSED_SHELL ( 'NONE', ( #133, #187, #196, #282, #252 ) ) ;
#266 =( NAMED_UNIT ( * ) PLANE_ANGLE_UNIT ( ) SI_UNIT ( $, .RADIAN. ) );
#267 = ORIENTED_EDGE ( 'NONE', *, *, #194, .T. ) ;
#268 = DATE_AND_TIME ( #156, #289 ) ;
#269 = EDGE_CURVE ( 'NONE', #291, #246, #88, .T. ) ;
#270 = EDGE_LOOP ( 'NONE', ( #120, #169, #68 ) ) ;
#271 = APPROVAL_STATUS ( 'not_yet_approved' ) ;
#272 = DIRECTION ( 'NONE',  ( -0.7071067811865475727, -0.7071067811865475727, 0.000000000000000000 ) ) ;
#273 = CARTESIAN_POINT ( 'NONE',  ( 12.69999999999999929, -12.69999999999999929, 12.69999999999999929 ) ) ;
#274 = CC_DESIGN_DATE_AND_TIME_ASSIGNMENT ( #110, #7, ( #113 ) ) ;
#275 = APPROVAL_ROLE ( '' ) ;
#276 = PLANE ( 'NONE',  #186 ) ;
#277 = VECTOR ( 'NONE', #56, 1000.000000000000000 ) ;
#278 = DIRECTION ( 'NONE',  ( 1.000000000000000000, 0.000000000000000000, 0.000000000000000000 ) ) ;
#279 = APPLICATION_CONTEXT ( 'configuration controlled 3d designs of mechanical parts and assemblies' ) ;
#280 = VECTOR ( 'NONE', #67, 1000.000000000000000 ) ;
#281 = PERSON_AND_ORGANIZATION_ROLE ( 'design_supplier' ) ;
#282 = ADVANCED_FACE ( 'NONE', ( #99 ), #121, .T. ) ;
#283 = CARTESIAN_POINT ( 'NONE',  ( 12.69999999999999574, 12.69999999999999574, -12.69999999999999929 ) ) ;
#284 = EDGE_CURVE ( 'NONE', #154, #179, #242, .T. ) ;
#285 = UNCERTAINTY_MEASURE_WITH_UNIT (LENGTH_MEASURE( 1.000000000000000082E-05 ), #132, 'distance_accuracy_value', 'NONE');
#286 = LINE ( 'NONE', #217, #280 ) ;
#287 = ADVANCED_BREP_SHAPE_REPRESENTATION ( 'BK7-LNPBSC-25.4-532', ( #164, #165, #102 ), #38 ) ;
#288 = VECTOR ( 'NONE', #37, 1000.000000000000000 ) ;
#289 = LOCAL_TIME ( 10, 2, 20.00000000000000000, #197 ) ;
#290 = APPROVAL ( #11, 'UNSPECIFIED' ) ;
#291 = VERTEX_POINT ( 'NONE', #54 ) ;
#292 = ORIENTED_EDGE ( 'NONE', *, *, #143, .F. ) ;
#293 = EDGE_LOOP ( 'NONE', ( #45, #123, #216, #20 ) ) ;
#294 = ORIENTED_EDGE ( 'NONE', *, *, #284, .T. ) ;
#295 = EDGE_LOOP ( 'NONE', ( #198, #260, #219, #116 ) ) ;
#296 = FACE_OUTER_BOUND ( 'NONE', #243, .T. ) ;
#297 = DIRECTION ( 'NONE',  ( 0.000000000000000000, 0.000000000000000000, 1.000000000000000000 ) ) ;
#298 = EDGE_CURVE ( 'NONE', #291, #239, #101, .T. ) ;
#299 = DIRECTION ( 'NONE',  ( -0.000000000000000000, 0.000000000000000000, 1.000000000000000000 ) ) ;
#300 = MECHANICAL_CONTEXT ( 'NONE', #279, 'mechanical' ) ;
#301 = DIRECTION ( 'NONE',  ( -0.7071067811865474617, -0.7071067811865474617, 0.000000000000000000 ) ) ;
#302 = COORDINATED_UNIVERSAL_TIME_OFFSET ( 8, 0, .AHEAD. ) ;
#303 = LINE ( 'NONE', #78, #288 ) ;
#304 = LOCAL_TIME ( 10, 2, 20.00000000000000000, #79 ) ;
#305 = DATE_TIME_ROLE ( 'classification_date' ) ;
#306 = LOCAL_TIME ( 10, 2, 20.00000000000000000, #232 ) ;
#307 = COORDINATED_UNIVERSAL_TIME_OFFSET ( 8, 0, .AHEAD. ) ;
#308 = ADVANCED_FACE ( 'NONE', ( #72 ), #46, .F. ) ;
#309 = CARTESIAN_POINT ( 'NONE',  ( 12.69999999999999929, 12.69999999999999929, 12.69999999999999929 ) ) ;
#310 = EDGE_CURVE ( 'NONE', #150, #65, #26, .T. ) ;
#311 = DESIGN_CONTEXT ( 'detailed design', #129, 'design' ) ;
#312 = EDGE_LOOP ( 'NONE', ( #91, #98, #220 ) ) ;
#313 = ORIENTED_EDGE ( 'NONE', *, *, #315, .F. ) ;
#314 = VECTOR ( 'NONE', #185, 999.9999999999998863 ) ;
#315 = EDGE_CURVE ( 'NONE', #178, #175, #245, .T. ) ;
#316 = ORIENTED_EDGE ( 'NONE', *, *, #240, .F. ) ;
#317 = VECTOR ( 'NONE', #238, 1000.000000000000000 ) ;
#318 = EDGE_LOOP ( 'NONE', ( #294, #316, #151, #47 ) ) ;
#319 = APPLICATION_PROTOCOL_DEFINITION ( 'international standard', 'config_control_design', 1994, #129 ) ;
#320 = VERTEX_POINT ( 'NONE', #77 ) ;
#321 = DIRECTION ( 'NONE',  ( 0.000000000000000000, -0.000000000000000000, 1.000000000000000000 ) ) ;
ENDSEC;
END-ISO-10303-21;
